ISO-10303-21;
HEADER;
FILE_DESCRIPTION (( 'STEP AP203' ),
    '1' );
FILE_NAME ('QM-AAQWP-10-550-750-M.STEP',
    '2021-01-05T02:41:49',
    ( '' ),
    ( '' ),
    'SwSTEP 2.0',
    'SolidWorks 2020',
    '' );
FILE_SCHEMA (( 'CONFIG_CONTROL_DESIGN' ));
ENDSEC;

DATA;
#1 = APPROVAL_STATUS ( 'not_yet_approved' ) ;
#2 = DIRECTION ( 'NONE',  ( -1.000000000000000000, -0.000000000000000000, -0.000000000000000000 ) ) ;
#3 = PERSON_AND_ORGANIZATION_ROLE ( 'classification_officer' ) ;
#4 = CARTESIAN_POINT ( 'NONE',  ( 0.5000000000000002220, 5.000000000000000000, 0.000000000000000000 ) ) ;
#5 = DIRECTION ( 'NONE',  ( 0.000000000000000000, 0.000000000000000000, -1.000000000000000000 ) ) ;
#6 = PLANE ( 'NONE',  #272 ) ;
#7 = AXIS2_PLACEMENT_3D ( 'NONE', #39, #93, #73 ) ;
#8 =( LENGTH_UNIT ( ) NAMED_UNIT ( * ) SI_UNIT ( .MILLI., .METRE. ) );
#9 = VERTEX_POINT ( 'NONE', #198 ) ;
#10 = ORIENTED_EDGE ( 'NONE', *, *, #86, .T. ) ;
#11 = ADVANCED_FACE ( 'NONE', ( #47 ), #120, .F. ) ;
#12 = ORIENTED_EDGE ( 'NONE', *, *, #201, .F. ) ;
#13 = CIRCLE ( 'NONE', #7, 5.000000000000000000 ) ;
#14 =( GEOMETRIC_REPRESENTATION_CONTEXT ( 3 ) GLOBAL_UNCERTAINTY_ASSIGNED_CONTEXT ( ( #168 ) ) GLOBAL_UNIT_ASSIGNED_CONTEXT ( ( #8, #109, #216 ) ) REPRESENTATION_CONTEXT ( 'NONE', 'WORKASPACE' ) );
#15 = EDGE_CURVE ( 'NONE', #176, #188, #20, .T. ) ;
#16 = ORIENTED_EDGE ( 'NONE', *, *, #54, .T. ) ;
#17 = ORIENTED_EDGE ( 'NONE', *, *, #201, .T. ) ;
#18 = EDGE_CURVE ( 'NONE', #9, #322, #288, .T. ) ;
#19 = DIRECTION ( 'NONE',  ( -1.000000000000000000, -0.000000000000000000, -0.000000000000000000 ) ) ;
#20 = CIRCLE ( 'NONE', #53, 5.000000000000000000 ) ;
#21 = DIRECTION ( 'NONE',  ( 1.000000000000000000, 0.000000000000000000, 0.000000000000000000 ) ) ;
#22 = PERSON_AND_ORGANIZATION ( #264, #95 ) ;
#23 = ORIENTED_EDGE ( 'NONE', *, *, #61, .T. ) ;
#24 = PERSON_AND_ORGANIZATION ( #264, #95 ) ;
#25 = APPROVAL_DATE_TIME ( #74, #126 ) ;
#26 = DIRECTION ( 'NONE',  ( -1.000000000000000000, -0.000000000000000000, -0.000000000000000000 ) ) ;
#27 = CARTESIAN_POINT ( 'NONE',  ( 0.5000000000000004441, 0.000000000000000000, 0.000000000000000000 ) ) ;
#28 = COORDINATED_UNIVERSAL_TIME_OFFSET ( 8, 0, .AHEAD. ) ;
#29 = PLANE ( 'NONE',  #245 ) ;
#30 = CARTESIAN_POINT ( 'NONE',  ( -1.614212418857619014, 0.000000000000000000, 0.000000000000000000 ) ) ;
#31 = EDGE_LOOP ( 'NONE', ( #228, #142, #32, #33 ) ) ;
#32 = ORIENTED_EDGE ( 'NONE', *, *, #173, .T. ) ;
#33 = ORIENTED_EDGE ( 'NONE', *, *, #208, .T. ) ;
#34 = EDGE_CURVE ( 'NONE', #322, #9, #117, .T. ) ;
#35 = ORIENTED_EDGE ( 'NONE', *, *, #249, .F. ) ;
#36 = CIRCLE ( 'NONE', #275, 5.000000000000001776 ) ;
#37 = LOCAL_TIME ( 10, 41, 49.00000000000000000, #100 ) ;
#38 = EDGE_LOOP ( 'NONE', ( #218, #113 ) ) ;
#39 = CARTESIAN_POINT ( 'NONE',  ( -3.000000000000000000, 0.000000000000000000, 0.000000000000000000 ) ) ;
#40 = DESIGN_CONTEXT ( 'detailed design', #127, 'design' ) ;
#41 = EDGE_CURVE ( 'NONE', #9, #176, #199, .T. ) ;
#42 = CARTESIAN_POINT ( 'NONE',  ( -3.000000000000000000, 0.000000000000000000, 0.000000000000000000 ) ) ;
#43 = AXIS2_PLACEMENT_3D ( 'NONE', #279, #277, #149 ) ;
#44 = EDGE_CURVE ( 'NONE', #137, #138, #99, .T. ) ;
#45 = FACE_OUTER_BOUND ( 'NONE', #273, .T. ) ;
#46 = EDGE_CURVE ( 'NONE', #138, #276, #97, .T. ) ;
#47 = FACE_OUTER_BOUND ( 'NONE', #292, .T. ) ;
#48 = PERSON_AND_ORGANIZATION ( #264, #95 ) ;
#49 = DIRECTION ( 'NONE',  ( 0.000000000000000000, 0.000000000000000000, 1.000000000000000000 ) ) ;
#50 = COORDINATED_UNIVERSAL_TIME_OFFSET ( 8, 0, .AHEAD. ) ;
#51 = DIRECTION ( 'NONE',  ( -1.000000000000000000, -0.000000000000000000, -0.000000000000000000 ) ) ;
#52 = APPROVAL_STATUS ( 'not_yet_approved' ) ;
#53 = AXIS2_PLACEMENT_3D ( 'NONE', #42, #119, #49 ) ;
#54 = EDGE_CURVE ( 'NONE', #188, #176, #13, .T. ) ;
#55 = APPROVAL_DATE_TIME ( #179, #331 ) ;
#56 = APPROVAL_STATUS ( 'not_yet_approved' ) ;
#57 = CARTESIAN_POINT ( 'NONE',  ( -1.614212418857619014, 0.000000000000000000, 5.000000000000000888 ) ) ;
#58 = LOCAL_TIME ( 10, 41, 49.00000000000000000, #50 ) ;
#59 = DIRECTION ( 'NONE',  ( 0.000000000000000000, 0.000000000000000000, 1.000000000000000000 ) ) ;
#60 = ADVANCED_FACE ( 'NONE', ( #174 ), #96, .T. ) ;
#61 = EDGE_CURVE ( 'NONE', #138, #137, #185, .T. ) ;
#62 = ORIENTED_EDGE ( 'NONE', *, *, #18, .F. ) ;
#63 = VERTEX_POINT ( 'NONE', #197 ) ;
#64 = EDGE_LOOP ( 'NONE', ( #271, #10 ) ) ;
#65 = EDGE_CURVE ( 'NONE', #270, #276, #68, .T. ) ;
#66 = EDGE_LOOP ( 'NONE', ( #62, #267 ) ) ;
#67 = ORIENTED_EDGE ( 'NONE', *, *, #15, .T. ) ;
#68 = CIRCLE ( 'NONE', #212, 12.69999999999999929 ) ;
#69 = DIRECTION ( 'NONE',  ( 0.000000000000000000, 0.000000000000000000, 1.000000000000000000 ) ) ;
#70 = ADVANCED_FACE ( 'NONE', ( #248 ), #252, .F. ) ;
#71 = DIRECTION ( 'NONE',  ( 0.000000000000000000, 0.000000000000000000, 1.000000000000000000 ) ) ;
#72 = AXIS2_PLACEMENT_3D ( 'NONE', #30, #258, #204 ) ;
#73 = DIRECTION ( 'NONE',  ( 0.000000000000000000, 0.000000000000000000, 1.000000000000000000 ) ) ;
#74 = DATE_AND_TIME ( #253, #310 ) ;
#75 = ORIENTED_EDGE ( 'NONE', *, *, #18, .T. ) ;
#76 = DIRECTION ( 'NONE',  ( 0.000000000000000000, 0.000000000000000000, 1.000000000000000000 ) ) ;
#77 = FACE_OUTER_BOUND ( 'NONE', #64, .T. ) ;
#78 = PERSON_AND_ORGANIZATION ( #264, #95 ) ;
#79 = AXIS2_PLACEMENT_3D ( 'NONE', #105, #76, #152 ) ;
#80 = DIRECTION ( 'NONE',  ( -1.000000000000000000, -0.000000000000000000, -0.000000000000000000 ) ) ;
#81 = LINE ( 'NONE', #238, #235 ) ;
#82 = PERSON_AND_ORGANIZATION ( #264, #95 ) ;
#83 = FACE_BOUND ( 'NONE', #38, .T. ) ;
#84 = AXIS2_PLACEMENT_3D ( 'NONE', #155, #2, #161 ) ;
#85 = LINE ( 'NONE', #57, #300 ) ;
#86 = EDGE_CURVE ( 'NONE', #276, #270, #145, .T. ) ;
#87 = VERTEX_POINT ( 'NONE', #303 ) ;
#88 = EDGE_LOOP ( 'NONE', ( #217, #191 ) ) ;
#89 = AXIS2_PLACEMENT_3D ( 'NONE', #254, #196, #71 ) ;
#90 = CC_DESIGN_PERSON_AND_ORGANIZATION_ASSIGNMENT ( #22, #121, ( #91 ) ) ;
#91 = PRODUCT_DEFINITION_FORMATION_WITH_SPECIFIED_SOURCE ( 'ANY', '', #215, .NOT_KNOWN. ) ;
#92 = MANIFOLD_SOLID_BREP ( 'Ðý×', #285 ) ;
#93 = DIRECTION ( 'NONE',  ( -1.000000000000000000, -0.000000000000000000, -0.000000000000000000 ) ) ;
#94 = VECTOR ( 'NONE', #80, 1000.000000000000000 ) ;
#95 = ORGANIZATION ( 'UNSPECIFIED', 'UNSPECIFIED', '' ) ;
#96 = CYLINDRICAL_SURFACE ( 'NONE', #43, 12.69999999999999929 ) ;
#97 = LINE ( 'NONE', #306, #158 ) ;
#98 = DIRECTION ( 'NONE',  ( -1.000000000000000000, -0.000000000000000000, -0.000000000000000000 ) ) ;
#99 = CIRCLE ( 'NONE', #296, 12.69999999999999929 ) ;
#100 = COORDINATED_UNIVERSAL_TIME_OFFSET ( 8, 0, .AHEAD. ) ;
#101 = DIRECTION ( 'NONE',  ( -1.000000000000000000, -0.000000000000000000, -0.000000000000000000 ) ) ;
#102 = DATE_AND_TIME ( #124, #37 ) ;
#103 = VECTOR ( 'NONE', #98, 1000.000000000000000 ) ;
#104 = CYLINDRICAL_SURFACE ( 'NONE', #320, 5.000000000000000888 ) ;
#105 = CARTESIAN_POINT ( 'NONE',  ( 0.000000000000000000, 0.000000000000000000, 0.000000000000000000 ) ) ;
#106 = CARTESIAN_POINT ( 'NONE',  ( -3.000000000000000000, 0.000000000000000000, 12.69999999999999929 ) ) ;
#107 = DIRECTION ( 'NONE',  ( 0.000000000000000000, 0.000000000000000000, 1.000000000000000000 ) ) ;
#108 = CARTESIAN_POINT ( 'NONE',  ( 0.5000000000000004441, 6.123233995736766282E-16, -5.000000000000000000 ) ) ;
#109 =( NAMED_UNIT ( * ) PLANE_ANGLE_UNIT ( ) SI_UNIT ( $, .RADIAN. ) );
#110 = EDGE_LOOP ( 'NONE', ( #35, #299, #244, #319 ) ) ;
#111 = AXIS2_PLACEMENT_3D ( 'NONE', #250, #19, #227 ) ;
#112 = ORIENTED_EDGE ( 'NONE', *, *, #190, .T. ) ;
#113 = ORIENTED_EDGE ( 'NONE', *, *, #54, .F. ) ;
#114 = ORIENTED_EDGE ( 'NONE', *, *, #295, .F. ) ;
#115 = ADVANCED_FACE ( 'NONE', ( #45 ), #251, .T. ) ;
#116 = DIRECTION ( 'NONE',  ( -1.000000000000000000, -0.000000000000000000, -0.000000000000000000 ) ) ;
#117 = CIRCLE ( 'NONE', #206, 5.000000000000000888 ) ;
#118 = CC_DESIGN_APPROVAL ( #214, ( #305 ) ) ;
#119 = DIRECTION ( 'NONE',  ( -1.000000000000000000, -0.000000000000000000, -0.000000000000000000 ) ) ;
#120 = CYLINDRICAL_SURFACE ( 'NONE', #181, 5.000000000000000888 ) ;
#121 = PERSON_AND_ORGANIZATION_ROLE ( 'creator' ) ;
#122 = ORIENTED_EDGE ( 'NONE', *, *, #46, .F. ) ;
#123 = VECTOR ( 'NONE', #239, 1000.000000000000000 ) ;
#124 = CALENDAR_DATE ( 2021, 5, 1 ) ;
#125 = CARTESIAN_POINT ( 'NONE',  ( -1.614212418857619014, 0.000000000000000000, 0.000000000000000000 ) ) ;
#126 = APPROVAL ( #56, 'UNSPECIFIED' ) ;
#127 = APPLICATION_CONTEXT ( 'configuration controlled 3d designs of mechanical parts and assemblies' ) ;
#128 = PERSON_AND_ORGANIZATION_ROLE ( 'design_supplier' ) ;
#129 = DIRECTION ( 'NONE',  ( -1.000000000000000000, -0.000000000000000000, -0.000000000000000000 ) ) ;
#130 = DIRECTION ( 'NONE',  ( -1.000000000000000000, -0.000000000000000000, -0.000000000000000000 ) ) ;
#131 = AXIS2_PLACEMENT_3D ( 'NONE', #27, #290, #333 ) ;
#132 = APPROVAL_ROLE ( '' ) ;
#133 = CARTESIAN_POINT ( 'NONE',  ( 3.000000000000000000, 1.555301434917138433E-15, -12.69999999999999929 ) ) ;
#134 = CARTESIAN_POINT ( 'NONE',  ( 3.000000000000000000, 0.000000000000000000, 0.000000000000000000 ) ) ;
#135 = ADVANCED_FACE ( 'NONE', ( #83, #77 ), #211, .F. ) ;
#136 = APPROVAL_PERSON_ORGANIZATION ( #24, #214, #329 ) ;
#137 = VERTEX_POINT ( 'NONE', #287 ) ;
#138 = VERTEX_POINT ( 'NONE', #133 ) ;
#139 = CC_DESIGN_PERSON_AND_ORGANIZATION_ASSIGNMENT ( #82, #128, ( #91 ) ) ;
#140 = EDGE_LOOP ( 'NONE', ( #112, #170 ) ) ;
#141 = EDGE_CURVE ( 'NONE', #301, #230, #241, .T. ) ;
#142 = ORIENTED_EDGE ( 'NONE', *, *, #190, .F. ) ;
#143 = DIRECTION ( 'NONE',  ( 0.000000000000000000, 0.000000000000000000, 1.000000000000000000 ) ) ;
#144 = DIRECTION ( 'NONE',  ( 1.000000000000000000, 0.000000000000000000, 0.000000000000000000 ) ) ;
#145 = CIRCLE ( 'NONE', #111, 12.69999999999999929 ) ;
#146 = CARTESIAN_POINT ( 'NONE',  ( -1.614212418857619014, 0.000000000000000000, 5.000000000000000888 ) ) ;
#147 = DIRECTION ( 'NONE',  ( 0.000000000000000000, 0.000000000000000000, -1.000000000000000000 ) ) ;
#148 = APPROVAL_ROLE ( '' ) ;
#149 = DIRECTION ( 'NONE',  ( 0.000000000000000000, 0.000000000000000000, 1.000000000000000000 ) ) ;
#150 = AXIS2_PLACEMENT_3D ( 'NONE', #125, #26, #335 ) ;
#151 = CC_DESIGN_SECURITY_CLASSIFICATION ( #305, ( #91 ) ) ;
#152 = DIRECTION ( 'NONE',  ( 1.000000000000000000, 0.000000000000000000, 0.000000000000000000 ) ) ;
#153 = FACE_OUTER_BOUND ( 'NONE', #31, .T. ) ;
#154 = PERSON_AND_ORGANIZATION ( #264, #95 ) ;
#155 = CARTESIAN_POINT ( 'NONE',  ( -1.614212418857619014, 0.000000000000000000, 0.000000000000000000 ) ) ;
#156 = CALENDAR_DATE ( 2021, 5, 1 ) ;
#157 = CARTESIAN_POINT ( 'NONE',  ( -3.000000000000000000, 1.555301434917138433E-15, -12.69999999999999929 ) ) ;
#158 = VECTOR ( 'NONE', #304, 1000.000000000000000 ) ;
#159 = PERSON_AND_ORGANIZATION ( #264, #95 ) ;
#160 = CARTESIAN_POINT ( 'NONE',  ( -1.614212418857619014, 0.000000000000000000, 12.69999999999999929 ) ) ;
#161 = DIRECTION ( 'NONE',  ( 0.000000000000000000, 0.000000000000000000, 1.000000000000000000 ) ) ;
#162 = DIRECTION ( 'NONE',  ( -0.000000000000000000, 0.000000000000000000, 1.000000000000000000 ) ) ;
#163 = ORIENTED_EDGE ( 'NONE', *, *, #86, .F. ) ;
#164 = FACE_OUTER_BOUND ( 'NONE', #88, .T. ) ;
#165 = CC_DESIGN_APPROVAL ( #126, ( #289 ) ) ;
#166 = ORIENTED_EDGE ( 'NONE', *, *, #44, .T. ) ;
#167 = ORIENTED_EDGE ( 'NONE', *, *, #41, .F. ) ;
#168 = UNCERTAINTY_MEASURE_WITH_UNIT (LENGTH_MEASURE( 1.000000000000000082E-05 ), #8, 'distance_accuracy_value', 'NONE');
#169 = PRODUCT_DEFINITION_SHAPE ( 'NONE', 'NONE',  #289 ) ;
#170 = ORIENTED_EDGE ( 'NONE', *, *, #249, .T. ) ;
#171 = CARTESIAN_POINT ( 'NONE',  ( -3.000000000000000000, 0.000000000000000000, 0.000000000000000000 ) ) ;
#172 = CARTESIAN_POINT ( 'NONE',  ( 3.000000000000000000, 0.000000000000000000, 0.000000000000000000 ) ) ;
#173 = EDGE_CURVE ( 'NONE', #87, #230, #85, .T. ) ;
#174 = FACE_OUTER_BOUND ( 'NONE', #221, .T. ) ;
#175 = CALENDAR_DATE ( 2021, 5, 1 ) ;
#176 = VERTEX_POINT ( 'NONE', #314 ) ;
#177 = APPLICATION_PROTOCOL_DEFINITION ( 'international standard', 'config_control_design', 1994, #226 ) ;
#178 = LINE ( 'NONE', #160, #94 ) ;
#179 = DATE_AND_TIME ( #308, #58 ) ;
#180 = CARTESIAN_POINT ( 'NONE',  ( 3.000000000000000000, 0.000000000000000000, 0.000000000000000000 ) ) ;
#181 = AXIS2_PLACEMENT_3D ( 'NONE', #302, #324, #69 ) ;
#182 = DIRECTION ( 'NONE',  ( -1.000000000000000000, -0.000000000000000000, -0.000000000000000000 ) ) ;
#183 = DATE_TIME_ROLE ( 'classification_date' ) ;
#184 = CARTESIAN_POINT ( 'NONE',  ( -3.000000000000000000, 5.000000000000000000, 0.000000000000000000 ) ) ;
#185 = CIRCLE ( 'NONE', #89, 12.69999999999999929 ) ;
#186 = CARTESIAN_POINT ( 'NONE',  ( 0.5000000000000004441, 0.000000000000000000, 0.000000000000000000 ) ) ;
#187 = LOCAL_TIME ( 10, 41, 49.00000000000000000, #278 ) ;
#188 = VERTEX_POINT ( 'NONE', #307 ) ;
#189 = EDGE_CURVE ( 'NONE', #63, #301, #205, .T. ) ;
#190 = EDGE_CURVE ( 'NONE', #87, #63, #36, .T. ) ;
#191 = ORIENTED_EDGE ( 'NONE', *, *, #61, .F. ) ;
#192 = AXIS2_PLACEMENT_3D ( 'NONE', #186, #51, #59 ) ;
#193 = ORIENTED_EDGE ( 'NONE', *, *, #141, .F. ) ;
#194 = ORIENTED_EDGE ( 'NONE', *, *, #295, .T. ) ;
#195 = AXIS2_PLACEMENT_3D ( 'NONE', #224, #325, #274 ) ;
#196 = DIRECTION ( 'NONE',  ( -1.000000000000000000, -0.000000000000000000, -0.000000000000000000 ) ) ;
#197 = CARTESIAN_POINT ( 'NONE',  ( 3.000000000000000000, 6.123233995736768255E-16, -5.000000000000001776 ) ) ;
#198 = CARTESIAN_POINT ( 'NONE',  ( -0.5000000000000002220, 0.000000000000000000, 5.000000000000000888 ) ) ;
#199 = LINE ( 'NONE', #146, #103 ) ;
#200 = CIRCLE ( 'NONE', #281, 5.000000000000001776 ) ;
#201 = EDGE_CURVE ( 'NONE', #137, #270, #178, .T. ) ;
#202 = CC_DESIGN_DATE_AND_TIME_ASSIGNMENT ( #283, #229, ( #289 ) ) ;
#203 = CARTESIAN_POINT ( 'NONE',  ( -0.5000000000000002220, 0.000000000000000000, 0.000000000000000000 ) ) ;
#204 = DIRECTION ( 'NONE',  ( 0.000000000000000000, 0.000000000000000000, 1.000000000000000000 ) ) ;
#205 = LINE ( 'NONE', #282, #123 ) ;
#206 = AXIS2_PLACEMENT_3D ( 'NONE', #203, #21, #327 ) ;
#207 = DIRECTION ( 'NONE',  ( -1.000000000000000000, -0.000000000000000000, -0.000000000000000000 ) ) ;
#208 = EDGE_CURVE ( 'NONE', #230, #301, #261, .T. ) ;
#209 = APPLICATION_PROTOCOL_DEFINITION ( 'international standard', 'config_control_design', 1994, #127 ) ;
#210 = DIRECTION ( 'NONE',  ( -1.000000000000000000, 0.000000000000000000, -0.000000000000000000 ) ) ;
#211 = PLANE ( 'NONE',  #219 ) ;
#212 = AXIS2_PLACEMENT_3D ( 'NONE', #171, #116, #143 ) ;
#213 = CARTESIAN_POINT ( 'NONE',  ( 3.000000000000000000, 12.69999999999999929, 0.000000000000000000 ) ) ;
#214 = APPROVAL ( #52, 'UNSPECIFIED' ) ;
#215 = PRODUCT ( 'QM-AAQWP-10-550-750-M', 'QM-AAQWP-10-550-750-M', '', ( #286 ) ) ;
#216 =( NAMED_UNIT ( * ) SI_UNIT ( $, .STERADIAN. ) SOLID_ANGLE_UNIT ( ) );
#217 = ORIENTED_EDGE ( 'NONE', *, *, #44, .F. ) ;
#218 = ORIENTED_EDGE ( 'NONE', *, *, #15, .F. ) ;
#219 = AXIS2_PLACEMENT_3D ( 'NONE', #184, #262, #5 ) ;
#220 = ORIENTED_EDGE ( 'NONE', *, *, #34, .T. ) ;
#221 = EDGE_LOOP ( 'NONE', ( #122, #23, #17, #163 ) ) ;
#222 = CC_DESIGN_PERSON_AND_ORGANIZATION_ASSIGNMENT ( #154, #332, ( #215 ) ) ;
#223 = CARTESIAN_POINT ( 'NONE',  ( -0.5000000000000002220, 0.000000000000000000, 0.000000000000000000 ) ) ;
#224 = CARTESIAN_POINT ( 'NONE',  ( -0.5000000000000002220, 5.000000000000000000, 0.000000000000000000 ) ) ;
#225 = PRODUCT_RELATED_PRODUCT_CATEGORY ( 'detail', '', ( #215 ) ) ;
#226 = APPLICATION_CONTEXT ( 'configuration controlled 3d designs of mechanical parts and assemblies' ) ;
#227 = DIRECTION ( 'NONE',  ( 0.000000000000000000, 0.000000000000000000, 1.000000000000000000 ) ) ;
#228 = ORIENTED_EDGE ( 'NONE', *, *, #189, .F. ) ;
#229 = DATE_TIME_ROLE ( 'creation_date' ) ;
#230 = VERTEX_POINT ( 'NONE', #256 ) ;
#231 = CARTESIAN_POINT ( 'NONE',  ( -1.614212418857619014, 0.000000000000000000, 0.000000000000000000 ) ) ;
#232 = CYLINDRICAL_SURFACE ( 'NONE', #150, 5.000000000000000888 ) ;
#233 = ADVANCED_FACE ( 'NONE', ( #153 ), #232, .F. ) ;
#234 = CYLINDRICAL_SURFACE ( 'NONE', #84, 5.000000000000000888 ) ;
#235 = VECTOR ( 'NONE', #182, 1000.000000000000000 ) ;
#236 = LOCAL_TIME ( 10, 41, 49.00000000000000000, #255 ) ;
#237 = SECURITY_CLASSIFICATION_LEVEL ( 'unclassified' ) ;
#238 = CARTESIAN_POINT ( 'NONE',  ( -1.614212418857619014, 6.123233995736767268E-16, -5.000000000000000888 ) ) ;
#239 = DIRECTION ( 'NONE',  ( -1.000000000000000000, -0.000000000000000000, -0.000000000000000000 ) ) ;
#240 = CC_DESIGN_PERSON_AND_ORGANIZATION_ASSIGNMENT ( #78, #3, ( #305 ) ) ;
#241 = CIRCLE ( 'NONE', #131, 5.000000000000000000 ) ;
#242 = CARTESIAN_POINT ( 'NONE',  ( -0.5000000000000002220, 6.123233995736767268E-16, -5.000000000000000888 ) ) ;
#243 = ORIENTED_EDGE ( 'NONE', *, *, #208, .F. ) ;
#244 = ORIENTED_EDGE ( 'NONE', *, *, #141, .T. ) ;
#245 = AXIS2_PLACEMENT_3D ( 'NONE', #4, #210, #313 ) ;
#246 = CC_DESIGN_APPROVAL ( #331, ( #91 ) ) ;
#247 = EDGE_LOOP ( 'NONE', ( #243, #193 ) ) ;
#248 = FACE_OUTER_BOUND ( 'NONE', #66, .T. ) ;
#249 = EDGE_CURVE ( 'NONE', #63, #87, #200, .T. ) ;
#250 = CARTESIAN_POINT ( 'NONE',  ( -3.000000000000000000, 0.000000000000000000, 0.000000000000000000 ) ) ;
#251 = CYLINDRICAL_SURFACE ( 'NONE', #72, 12.69999999999999929 ) ;
#252 = PLANE ( 'NONE',  #195 ) ;
#253 = CALENDAR_DATE ( 2021, 5, 1 ) ;
#254 = CARTESIAN_POINT ( 'NONE',  ( 3.000000000000000000, 0.000000000000000000, 0.000000000000000000 ) ) ;
#255 = COORDINATED_UNIVERSAL_TIME_OFFSET ( 8, 0, .AHEAD. ) ;
#256 = CARTESIAN_POINT ( 'NONE',  ( 0.5000000000000004441, 0.000000000000000000, 5.000000000000000000 ) ) ;
#257 = SHAPE_DEFINITION_REPRESENTATION ( #169, #291 ) ;
#258 = DIRECTION ( 'NONE',  ( -1.000000000000000000, -0.000000000000000000, -0.000000000000000000 ) ) ;
#259 = APPROVAL_DATE_TIME ( #102, #214 ) ;
#260 = FACE_OUTER_BOUND ( 'NONE', #247, .T. ) ;
#261 = CIRCLE ( 'NONE', #192, 5.000000000000000000 ) ;
#262 = DIRECTION ( 'NONE',  ( 1.000000000000000000, 0.000000000000000000, 0.000000000000000000 ) ) ;
#263 = ADVANCED_FACE ( 'NONE', ( #309 ), #234, .F. ) ;
#264 = PERSON ( 'UNSPECIFIED', 'UNSPECIFIED', 'UNSPECIFIED', ('UNSPECIFIED'), ('UNSPECIFIED'), ('UNSPECIFIED') ) ;
#265 = CC_DESIGN_DATE_AND_TIME_ASSIGNMENT ( #334, #183, ( #305 ) ) ;
#266 = FACE_OUTER_BOUND ( 'NONE', #316, .T. ) ;
#267 = ORIENTED_EDGE ( 'NONE', *, *, #34, .F. ) ;
#268 = APPROVAL_PERSON_ORGANIZATION ( #48, #126, #148 ) ;
#269 = ORIENTED_EDGE ( 'NONE', *, *, #65, .F. ) ;
#270 = VERTEX_POINT ( 'NONE', #106 ) ;
#271 = ORIENTED_EDGE ( 'NONE', *, *, #65, .T. ) ;
#272 = AXIS2_PLACEMENT_3D ( 'NONE', #213, #315, #162 ) ;
#273 = EDGE_LOOP ( 'NONE', ( #166, #294, #269, #12 ) ) ;
#274 = DIRECTION ( 'NONE',  ( 0.000000000000000000, 0.000000000000000000, -1.000000000000000000 ) ) ;
#275 = AXIS2_PLACEMENT_3D ( 'NONE', #134, #129, #107 ) ;
#276 = VERTEX_POINT ( 'NONE', #157 ) ;
#277 = DIRECTION ( 'NONE',  ( -1.000000000000000000, -0.000000000000000000, -0.000000000000000000 ) ) ;
#278 = COORDINATED_UNIVERSAL_TIME_OFFSET ( 8, 0, .AHEAD. ) ;
#279 = CARTESIAN_POINT ( 'NONE',  ( -1.614212418857619014, 0.000000000000000000, 0.000000000000000000 ) ) ;
#280 = PERSON_AND_ORGANIZATION ( #264, #95 ) ;
#281 = AXIS2_PLACEMENT_3D ( 'NONE', #180, #130, #284 ) ;
#282 = CARTESIAN_POINT ( 'NONE',  ( -1.614212418857619014, 6.123233995736767268E-16, -5.000000000000000888 ) ) ;
#283 = DATE_AND_TIME ( #175, #236 ) ;
#284 = DIRECTION ( 'NONE',  ( 0.000000000000000000, 0.000000000000000000, 1.000000000000000000 ) ) ;
#285 = CLOSED_SHELL ( 'NONE', ( #115, #293, #263, #298, #233, #11, #135, #60, #317, #70 ) ) ;
#286 = MECHANICAL_CONTEXT ( 'NONE', #226, 'mechanical' ) ;
#287 = CARTESIAN_POINT ( 'NONE',  ( 3.000000000000000000, 0.000000000000000000, 12.69999999999999929 ) ) ;
#288 = CIRCLE ( 'NONE', #328, 5.000000000000000888 ) ;
#289 = PRODUCT_DEFINITION ( 'UNKNOWN', '', #91, #40 ) ;
#290 = DIRECTION ( 'NONE',  ( -1.000000000000000000, -0.000000000000000000, -0.000000000000000000 ) ) ;
#291 = ADVANCED_BREP_SHAPE_REPRESENTATION ( 'QM-AAQWP-10-550-750-M', ( #92, #79 ), #14 ) ;
#292 = EDGE_LOOP ( 'NONE', ( #114, #220, #297, #67 ) ) ;
#293 = ADVANCED_FACE ( 'NONE', ( #266 ), #104, .F. ) ;
#294 = ORIENTED_EDGE ( 'NONE', *, *, #46, .T. ) ;
#295 = EDGE_CURVE ( 'NONE', #322, #188, #81, .T. ) ;
#296 = AXIS2_PLACEMENT_3D ( 'NONE', #172, #330, #326 ) ;
#297 = ORIENTED_EDGE ( 'NONE', *, *, #41, .T. ) ;
#298 = ADVANCED_FACE ( 'NONE', ( #260 ), #29, .F. ) ;
#299 = ORIENTED_EDGE ( 'NONE', *, *, #189, .T. ) ;
#300 = VECTOR ( 'NONE', #101, 1000.000000000000000 ) ;
#301 = VERTEX_POINT ( 'NONE', #108 ) ;
#302 = CARTESIAN_POINT ( 'NONE',  ( -1.614212418857619014, 0.000000000000000000, 0.000000000000000000 ) ) ;
#303 = CARTESIAN_POINT ( 'NONE',  ( 3.000000000000000000, 0.000000000000000000, 5.000000000000001776 ) ) ;
#304 = DIRECTION ( 'NONE',  ( -1.000000000000000000, -0.000000000000000000, -0.000000000000000000 ) ) ;
#305 = SECURITY_CLASSIFICATION ( '', '', #237 ) ;
#306 = CARTESIAN_POINT ( 'NONE',  ( -1.614212418857619014, 1.555301434917138433E-15, -12.69999999999999929 ) ) ;
#307 = CARTESIAN_POINT ( 'NONE',  ( -3.000000000000000000, 6.123233995736766282E-16, -5.000000000000000000 ) ) ;
#308 = CALENDAR_DATE ( 2021, 5, 1 ) ;
#309 = FACE_OUTER_BOUND ( 'NONE', #110, .T. ) ;
#310 = LOCAL_TIME ( 10, 41, 49.00000000000000000, #28 ) ;
#311 = DIRECTION ( 'NONE',  ( 0.000000000000000000, 0.000000000000000000, 1.000000000000000000 ) ) ;
#312 = PERSON_AND_ORGANIZATION_ROLE ( 'creator' ) ;
#313 = DIRECTION ( 'NONE',  ( -0.000000000000000000, 0.000000000000000000, 1.000000000000000000 ) ) ;
#314 = CARTESIAN_POINT ( 'NONE',  ( -3.000000000000000000, 0.000000000000000000, 5.000000000000000000 ) ) ;
#315 = DIRECTION ( 'NONE',  ( -1.000000000000000000, 0.000000000000000000, -0.000000000000000000 ) ) ;
#316 = EDGE_LOOP ( 'NONE', ( #75, #194, #16, #167 ) ) ;
#317 = ADVANCED_FACE ( 'NONE', ( #164, #318 ), #6, .F. ) ;
#318 = FACE_BOUND ( 'NONE', #140, .T. ) ;
#319 = ORIENTED_EDGE ( 'NONE', *, *, #173, .F. ) ;
#320 = AXIS2_PLACEMENT_3D ( 'NONE', #231, #207, #311 ) ;
#321 = APPROVAL_PERSON_ORGANIZATION ( #159, #331, #132 ) ;
#322 = VERTEX_POINT ( 'NONE', #242 ) ;
#323 = CC_DESIGN_PERSON_AND_ORGANIZATION_ASSIGNMENT ( #280, #312, ( #289 ) ) ;
#324 = DIRECTION ( 'NONE',  ( -1.000000000000000000, -0.000000000000000000, -0.000000000000000000 ) ) ;
#325 = DIRECTION ( 'NONE',  ( 1.000000000000000000, 0.000000000000000000, 0.000000000000000000 ) ) ;
#326 = DIRECTION ( 'NONE',  ( 0.000000000000000000, 0.000000000000000000, 1.000000000000000000 ) ) ;
#327 = DIRECTION ( 'NONE',  ( 0.000000000000000000, 0.000000000000000000, -1.000000000000000000 ) ) ;
#328 = AXIS2_PLACEMENT_3D ( 'NONE', #223, #144, #147 ) ;
#329 = APPROVAL_ROLE ( '' ) ;
#330 = DIRECTION ( 'NONE',  ( -1.000000000000000000, -0.000000000000000000, -0.000000000000000000 ) ) ;
#331 = APPROVAL ( #1, 'UNSPECIFIED' ) ;
#332 = PERSON_AND_ORGANIZATION_ROLE ( 'design_owner' ) ;
#333 = DIRECTION ( 'NONE',  ( 0.000000000000000000, 0.000000000000000000, 1.000000000000000000 ) ) ;
#334 = DATE_AND_TIME ( #156, #187 ) ;
#335 = DIRECTION ( 'NONE',  ( 0.000000000000000000, 0.000000000000000000, 1.000000000000000000 ) ) ;
ENDSEC;
END-ISO-10303-21;
